Make your own free website on Tripod.com

So Far Away

  Intro and Chorus
|---------------------------------------------------|
|---------------------------------------------------|
|----------------------------10--10--10-10--9-9-7-7-|
|--7--7--7-7--10--10--10-10--10--10--10-10--9-9-7-7-|
|--7--7--7-7--10--10--10-10---8---8---8--8--7-7-5-5-|
|--5--5--5-5---8---8---8--8-------------------------|


Verses
  PM--------------------------------------]
|------------------------------------------|
|------------------------------------------|
|------------------------------------------|
|------------------------------------------|
|--7-7-7-7-7-7-7-7-10-10-10-10-10-10-10-10-|
|--5-5-5-5-5-5-5-5--8--8--8--8--8--8--8--8-|

|------------------------|
|------------------------|
|-10--10--10-10--9-9-7-7-|
|-10--10--10-10--9-9-7-7-|
|--8---8---8--8--7-7-5-5-|
|------------------------|